{c:Intro}
[G]         [C]          [G]          [C]          [D7]         [G] 
[G]If my words did glow with the gold of [C]sunshine and my tunes were played on the harp un[G]strung
Would you hear my voice come through the [C]music? Would you [G]hold it [D]near, [C]as it were your [G]own?
[G]Its a hand-me-down, the thoughts are [C]broken, perhaps they're better left un[G]sung
I don't know, don't really [C]care, [G]let there be [D]songs [C]to fill the [G]air.

{c:Chorus}
   [Am]Ripple [Am7]in still [D]water, when there [G]is no pebble [C]tossed nor [Am]wind to [D]blow

Reach out your [G]hand if your cup be [C]empty, if your cup is full, may it be a[G]gain
Let it be known there is a [C]fountain, [G]that was not [D]made [C]by the hands of [G]men.
[G]There is a road, no simple [C]highway, between the dawn and the dark of [G]night
And if you go, no one may [C]follow, [G]that path is [D]for [C]your steps [G]alone.

{c:Chorus}

You who [G]choose to lead must [C]follow, but if you fall you fall a[G]lone
If you should stand, then who's to [C]guide you? [G]If I knew the [D]way, [C]I would take you [G]home.

{c:Fade on verse while humming}

{c:Intro TAB}
{sot:}
                    G                        C
|-------------------3---3--------------------0-------0-----------------0-----|
|-------------------0---0-----0---0----------1-------1-----------------1-----|
|---------------0---0---0---0---2---0--------0-------0---0----0-h2-0---0-----|
|----------0-0------0---0-------------0h2----2---2---2-----------------2-----|
|---2--2------------2---2--------------------3-------3-----------------3-----|
|-------------------3---3--------------------3-------3-----------------3-----|
                                                                     
                                           G                         C
|-------0-------0-------0------------------3---3---------------------0---0---|
|-------1-------1-------1------------------0---0-----0--0------------1---1---|
|-------0---0---0-------0--------------0---0---0---0--2---0----------0---0---|
|-0h2---2-------2---2---2---0--------0-----0---0---------------0h2---2---2---|
|-------3-------3-------3-------2--2-------2---2---------------------3---3---|
|-------3-------3-------3------------------3---3---------------------3---3---|

                D7                 G              
|---------------2---2--------------3---|           
|---0--0--1-----1---1--------------0---|         
|-2---------2---2---2---0-0-0-2-0--0---|   
|---------------0---0--------------0---|  
|---------------0---0--------------2---| 
|---------------0---0--------------3---|
{eot:}





































































































































































































































































How useful was this post?

Click on a star to rate it!

Average rating 0 / 5. Vote count: 0

No votes so far! Be the first to rate this post.

As you found this post useful...

Follow us on social media!

Close Menu