{ci:Intro:}
{sot}
E ----------------------------------------------------------------------
B ----------------------------------------------------------------------
G ----------------------------------------------------------------------
D -----------------0-(let ring for 4 beats) ----------------------------
A -------------2--------------------------------------------------------
E -0---0---4------------------------------------------------------------

This is played twice, then comes the familiar complete arpeggio:

E ----------------------------------------------------------------------
B ----------------------------------------------------------------------
G ----------------------------------------------------------------------
D -----------------0---4---2---0----------------------------------------
A -------------2--------------------------------------------------------
E -0---0---4------------------------------------------------------------
{eot}

[E]Pretty [A]woman, walking [F#m]down the street/Pretty [A]woman, the kind I [F#m]like to meet
Pretty [D]woman, I don't be[E]lieve you
No one could look as good as you

Pretty [A]woman, won't you [F#m]pardon me/Pretty [A]woman, I couldn't [F#m]help but see
Pretty [D]woman, you look [E]lovely as can be
Are you lonely just like me?

[Dm]Pretty woman, [G]stop a while/[C]Pretty woman, [Am]talk a while
[Dm]Pretty woman, give your smile to [C]me   
[Dm]Pretty woman, [G]yeah yeah yeah/[C]Pretty woman, [Am]walk my way
[Dm]Pretty woman, [G]say you'll stay with [C]me

[A]Oh, 'cause I [F#m]need you
[A]Come with me [F#m]baby

Pretty [A]woman, don't [F#m]walk on by/Pretty [A]woman, don't [F#m]make me cry
Pretty [A]woman, don't [E]walk away, hey... okay

If that's the [E]way it must be then okay
I guess I'll go on home
What do I see?  Is she walking back to me?  Yeah, she's walking back to me...
Oh, oh,
Pretty [A]Woman









































































































































































































































































How useful was this post?

Click on a star to rate it!

Average rating 0 / 5. Vote count: 0

  • Pretty Woman [Version Intégrale] [Version Intégrale]
  • The Ultimate Collection
  • Just Married (ou presque) - Édition Spéciale
  • Oh, Pretty Woman
  • Black & White Night [Import]
  • Oh, Pretty Woman

No votes so far! Be the first to rate this post.

As you found this post useful...

Follow us on social media!